ISO-10303-21;
HEADER;
FILE_DESCRIPTION (( 'STEP AP203' ),
    '1' );
FILE_NAME ('AL-HD14-5.1x10-6.35 Äèñòàíöèîííàÿ âòóëêà 5.1x10-6.35.STEP',
    '2024-12-12T13:50:49',
    ( '' ),
    ( '' ),
    'SwSTEP 2.0',
    'SolidWorks 2021',
    '' );
FILE_SCHEMA (( 'CONFIG_CONTROL_DESIGN' ));
ENDSEC;

DATA;
#1 = DIRECTION ( 'NONE',  ( 1.000000000000000000, 0.000000000000000000, 0.000000000000000000 ) ) ;
#2 = DIRECTION ( 'NONE',  ( 0.000000000000000000, 0.000000000000000000, 1.000000000000000000 ) ) ;
#3 = ORIENTED_EDGE ( 'NONE', *, *, #144, .F. ) ;
#4 = CALENDAR_DATE ( 2024, 12, 12 ) ;
#5 = COORDINATED_UNIVERSAL_TIME_OFFSET ( 3, 0, .AHEAD. ) ;
#6 = AXIS2_PLACEMENT_3D ( 'NONE', #101, #84, #200 ) ;
#7 = CIRCLE ( 'NONE', #126, 5.000000000000000000 ) ;
#8 = CARTESIAN_POINT ( 'NONE',  ( 2.549999999999999822, 3.122849337825750419E-16, 6.349999999999999645 ) ) ;
#9 = FACE_OUTER_BOUND ( 'NONE', #54, .T. ) ;
#10 = ORIENTED_EDGE ( 'NONE', *, *, #42, .T. ) ;
#11 = DATE_AND_TIME ( #104, #174 ) ;
#12 = ORIENTED_EDGE ( 'NONE', *, *, #218, .T. ) ;
#13 = DIRECTION ( 'NONE',  ( 1.000000000000000000, 0.000000000000000000, 0.000000000000000000 ) ) ;
#14 = PERSON_AND_ORGANIZATION_ROLE ( 'design_supplier' ) ;
#15 = FACE_OUTER_BOUND ( 'NONE', #153, .T. ) ;
#16 = ADVANCED_FACE ( 'NONE', ( #9, #44 ), #138, .T. ) ;
#17 = FACE_OUTER_BOUND ( 'NONE', #118, .T. ) ;
#18 = VECTOR ( 'NONE', #228, 1000.000000000000000 ) ;
#19 = DIRECTION ( 'NONE',  ( 1.000000000000000000, 0.000000000000000000, -0.000000000000000000 ) ) ;
#20 = ORIENTED_EDGE ( 'NONE', *, *, #149, .F. ) ;
#21 = EDGE_CURVE ( 'NONE', #180, #221, #245, .T. ) ;
#22 = ADVANCED_FACE ( 'NONE', ( #15 ), #206, .F. ) ;
#23 = ORIENTED_EDGE ( 'NONE', *, *, #64, .T. ) ;
#24 = APPLICATION_PROTOCOL_DEFINITION ( 'international standard', 'config_control_design', 1994, #151 ) ;
#25 = PERSON_AND_ORGANIZATION ( #162, #94 ) ;
#26 = ORIENTED_EDGE ( 'NONE', *, *, #42, .F. ) ;
#27 = PRODUCT_DEFINITION_FORMATION_WITH_SPECIFIED_SOURCE ( 'ANY', '', #134, .NOT_KNOWN. ) ;
#28 = ORIENTED_EDGE ( 'NONE', *, *, #21, .T. ) ;
#29 = DIRECTION ( 'NONE',  ( -0.000000000000000000, -0.000000000000000000, -1.000000000000000000 ) ) ;
#30 = PERSON_AND_ORGANIZATION ( #162, #94 ) ;
#31 = CARTESIAN_POINT ( 'NONE',  ( -2.549999999999999822, 0.000000000000000000, 6.349999999999999645 ) ) ;
#32 = DIRECTION ( 'NONE',  ( 0.000000000000000000, 0.000000000000000000, 1.000000000000000000 ) ) ;
#33 = DIRECTION ( 'NONE',  ( -1.000000000000000000, 0.000000000000000000, 0.000000000000000000 ) ) ;
#34 = APPROVAL_PERSON_ORGANIZATION ( #78, #133, #236 ) ;
#35 = CIRCLE ( 'NONE', #75, 2.549999999999999822 ) ;
#36 = APPROVAL ( #45, 'UNSPECIFIED' ) ;
#37 = CARTESIAN_POINT ( 'NONE',  ( -2.549999999999999822, 0.000000000000000000, 6.349999999999999645 ) ) ;
#38 = PERSON_AND_ORGANIZATION_ROLE ( 'design_owner' ) ;
#39 = ORIENTED_EDGE ( 'NONE', *, *, #144, .T. ) ;
#40 =( GEOMETRIC_REPRESENTATION_CONTEXT ( 3 ) GLOBAL_UNCERTAINTY_ASSIGNED_CONTEXT ( ( #53 ) ) GLOBAL_UNIT_ASSIGNED_CONTEXT ( ( #82, #232, #197 ) ) REPRESENTATION_CONTEXT ( 'NONE', 'WORKASPACE' ) );
#41 = APPROVAL_STATUS ( 'not_yet_approved' ) ;
#42 = EDGE_CURVE ( 'NONE', #57, #46, #192, .T. ) ;
#43 = AXIS2_PLACEMENT_3D ( 'NONE', #223, #249, #112 ) ;
#44 = FACE_BOUND ( 'NONE', #219, .T. ) ;
#45 = APPROVAL_STATUS ( 'not_yet_approved' ) ;
#46 = VERTEX_POINT ( 'NONE', #145 ) ;
#47 = AXIS2_PLACEMENT_3D ( 'NONE', #175, #115, #217 ) ;
#48 = PLANE ( 'NONE',  #231 ) ;
#49 = PERSON_AND_ORGANIZATION ( #162, #94 ) ;
#50 = CARTESIAN_POINT ( 'NONE',  ( 0.000000000000000000, 0.000000000000000000, 6.349999999999999645 ) ) ;
#51 = LINE ( 'NONE', #241, #18 ) ;
#52 = DIRECTION ( 'NONE',  ( 0.000000000000000000, 0.000000000000000000, 1.000000000000000000 ) ) ;
#53 = UNCERTAINTY_MEASURE_WITH_UNIT (LENGTH_MEASURE( 1.000000000000000082E-05 ), #82, 'distance_accuracy_value', 'NONE');
#54 = EDGE_LOOP ( 'NONE', ( #96, #120 ) ) ;
#55 = APPROVAL ( #166, 'UNSPECIFIED' ) ;
#56 = CIRCLE ( 'NONE', #114, 2.549999999999999822 ) ;
#57 = VERTEX_POINT ( 'NONE', #211 ) ;
#58 = DIRECTION ( 'NONE',  ( 0.000000000000000000, 0.000000000000000000, 1.000000000000000000 ) ) ;
#59 = CC_DESIGN_APPROVAL ( #55, ( #122 ) ) ;
#60 = CARTESIAN_POINT ( 'NONE',  ( -5.000000000000000000, 0.000000000000000000, 6.349999999999999645 ) ) ;
#61 = CALENDAR_DATE ( 2024, 12, 12 ) ;
#62 = ADVANCED_FACE ( 'NONE', ( #169 ), #110, .F. ) ;
#63 = ORIENTED_EDGE ( 'NONE', *, *, #99, .T. ) ;
#64 = EDGE_CURVE ( 'NONE', #46, #57, #113, .T. ) ;
#65 = VERTEX_POINT ( 'NONE', #87 ) ;
#66 = PERSON_AND_ORGANIZATION ( #162, #94 ) ;
#67 = ORIENTED_EDGE ( 'NONE', *, *, #99, .F. ) ;
#68 = SHAPE_DEFINITION_REPRESENTATION ( #158, #105 ) ;
#69 = CARTESIAN_POINT ( 'NONE',  ( 0.000000000000000000, 0.000000000000000000, 0.000000000000000000 ) ) ;
#70 = PERSON_AND_ORGANIZATION ( #162, #94 ) ;
#71 = LOCAL_TIME ( 16, 50, 49.00000000000000000, #201 ) ;
#72 = DIRECTION ( 'NONE',  ( 0.000000000000000000, 0.000000000000000000, 1.000000000000000000 ) ) ;
#73 = APPROVAL_DATE_TIME ( #246, #55 ) ;
#74 = DIRECTION ( 'NONE',  ( -0.000000000000000000, -0.000000000000000000, -1.000000000000000000 ) ) ;
#75 = AXIS2_PLACEMENT_3D ( 'NONE', #168, #188, #1 ) ;
#76 = CYLINDRICAL_SURFACE ( 'NONE', #91, 5.000000000000000000 ) ;
#77 = CARTESIAN_POINT ( 'NONE',  ( 0.000000000000000000, 0.000000000000000000, 0.000000000000000000 ) ) ;
#78 = PERSON_AND_ORGANIZATION ( #162, #94 ) ;
#79 = APPROVAL_DATE_TIME ( #152, #133 ) ;
#80 = CC_DESIGN_APPROVAL ( #133, ( #179 ) ) ;
#81 = PERSON_AND_ORGANIZATION_ROLE ( 'creator' ) ;
#82 =( LENGTH_UNIT ( ) NAMED_UNIT ( * ) SI_UNIT ( .MILLI., .METRE. ) );
#83 = CC_DESIGN_PERSON_AND_ORGANIZATION_ASSIGNMENT ( #135, #81, ( #179 ) ) ;
#84 = DIRECTION ( 'NONE',  ( 0.000000000000000000, 0.000000000000000000, 1.000000000000000000 ) ) ;
#85 = ORIENTED_EDGE ( 'NONE', *, *, #109, .F. ) ;
#86 = ORIENTED_EDGE ( 'NONE', *, *, #109, .T. ) ;
#87 = CARTESIAN_POINT ( 'NONE',  ( 2.549999999999999822, 3.122849337825750419E-16, 0.000000000000000000 ) ) ;
#88 = CARTESIAN_POINT ( 'NONE',  ( 0.000000000000000000, 0.000000000000000000, 0.000000000000000000 ) ) ;
#89 = ADVANCED_FACE ( 'NONE', ( #186 ), #225, .T. ) ;
#90 = DIRECTION ( 'NONE',  ( -1.000000000000000000, 0.000000000000000000, 0.000000000000000000 ) ) ;
#91 = AXIS2_PLACEMENT_3D ( 'NONE', #50, #123, #146 ) ;
#92 = CC_DESIGN_PERSON_AND_ORGANIZATION_ASSIGNMENT ( #30, #107, ( #122 ) ) ;
#93 = DIRECTION ( 'NONE',  ( 1.000000000000000000, 0.000000000000000000, 0.000000000000000000 ) ) ;
#94 = ORGANIZATION ( 'UNSPECIFIED', 'UNSPECIFIED', '' ) ;
#95 = MECHANICAL_CONTEXT ( 'NONE', #151, 'mechanical' ) ;
#96 = ORIENTED_EDGE ( 'NONE', *, *, #149, .T. ) ;
#97 = VERTEX_POINT ( 'NONE', #164 ) ;
#98 = CARTESIAN_POINT ( 'NONE',  ( 0.000000000000000000, 0.000000000000000000, 6.349999999999999645 ) ) ;
#99 = EDGE_CURVE ( 'NONE', #221, #65, #35, .T. ) ;
#100 = AXIS2_PLACEMENT_3D ( 'NONE', #106, #129, #93 ) ;
#101 = CARTESIAN_POINT ( 'NONE',  ( 0.000000000000000000, 0.000000000000000000, 6.349999999999999645 ) ) ;
#102 = LOCAL_TIME ( 16, 50, 49.00000000000000000, #157 ) ;
#103 = ORIENTED_EDGE ( 'NONE', *, *, #176, .F. ) ;
#104 = CALENDAR_DATE ( 2024, 12, 12 ) ;
#105 = ADVANCED_BREP_SHAPE_REPRESENTATION ( 'AL-HD14-5.1x10-6.35 -ø¸ªðý¡øþýýð  òªºûúð 5.1x10-6.35', ( #189, #47 ), #40 ) ;
#106 = CARTESIAN_POINT ( 'NONE',  ( 0.000000000000000000, 0.000000000000000000, 0.000000000000000000 ) ) ;
#107 = PERSON_AND_ORGANIZATION_ROLE ( 'classification_officer' ) ;
#108 = VECTOR ( 'NONE', #177, 1000.000000000000000 ) ;
#109 = EDGE_CURVE ( 'NONE', #65, #221, #190, .T. ) ;
#110 = CYLINDRICAL_SURFACE ( 'NONE', #247, 2.549999999999999822 ) ;
#111 = CARTESIAN_POINT ( 'NONE',  ( 0.000000000000000000, 0.000000000000000000, 6.349999999999999645 ) ) ;
#112 = DIRECTION ( 'NONE',  ( -1.000000000000000000, 0.000000000000000000, 0.000000000000000000 ) ) ;
#113 = CIRCLE ( 'NONE', #131, 5.000000000000000000 ) ;
#114 = AXIS2_PLACEMENT_3D ( 'NONE', #142, #147, #124 ) ;
#115 = DIRECTION ( 'NONE',  ( 0.000000000000000000, 0.000000000000000000, 1.000000000000000000 ) ) ;
#116 = DIRECTION ( 'NONE',  ( 1.000000000000000000, 0.000000000000000000, 0.000000000000000000 ) ) ;
#117 = DATE_TIME_ROLE ( 'creation_date' ) ;
#118 = EDGE_LOOP ( 'NONE', ( #26, #240 ) ) ;
#119 = SECURITY_CLASSIFICATION_LEVEL ( 'unclassified' ) ;
#120 = ORIENTED_EDGE ( 'NONE', *, *, #176, .T. ) ;
#121 = COORDINATED_UNIVERSAL_TIME_OFFSET ( 3, 0, .AHEAD. ) ;
#122 = SECURITY_CLASSIFICATION ( '', '', #119 ) ;
#123 = DIRECTION ( 'NONE',  ( -0.000000000000000000, -0.000000000000000000, -1.000000000000000000 ) ) ;
#124 = DIRECTION ( 'NONE',  ( 1.000000000000000000, 0.000000000000000000, 0.000000000000000000 ) ) ;
#125 = DATE_TIME_ROLE ( 'classification_date' ) ;
#126 = AXIS2_PLACEMENT_3D ( 'NONE', #215, #58, #116 ) ;
#127 = DIRECTION ( 'NONE',  ( 0.000000000000000000, 0.000000000000000000, 1.000000000000000000 ) ) ;
#128 = EDGE_CURVE ( 'NONE', #180, #238, #56, .T. ) ;
#129 = DIRECTION ( 'NONE',  ( 0.000000000000000000, 0.000000000000000000, 1.000000000000000000 ) ) ;
#130 = ADVANCED_FACE ( 'NONE', ( #208 ), #76, .T. ) ;
#131 = AXIS2_PLACEMENT_3D ( 'NONE', #69, #127, #13 ) ;
#132 = VERTEX_POINT ( 'NONE', #165 ) ;
#133 = APPROVAL ( #41, 'UNSPECIFIED' ) ;
#134 = PRODUCT ( 'AL-HD14-5.1x10-6.35 Äèñòàíöèîííàÿ âòóëêà 5.1x10-6.35', 'AL-HD14-5.1x10-6.35 Äèñòàíöèîííàÿ âòóëêà 5.1x10-6.35', '', ( #95 ) ) ;
#135 = PERSON_AND_ORGANIZATION ( #162, #94 ) ;
#136 = DATE_AND_TIME ( #61, #102 ) ;
#137 = CARTESIAN_POINT ( 'NONE',  ( -2.549999999999999822, 0.000000000000000000, 0.000000000000000000 ) ) ;
#138 = PLANE ( 'NONE',  #6 ) ;
#139 = ORIENTED_EDGE ( 'NONE', *, *, #128, .T. ) ;
#140 = DIRECTION ( 'NONE',  ( 1.000000000000000000, 0.000000000000000000, 0.000000000000000000 ) ) ;
#141 = LOCAL_TIME ( 16, 50, 49.00000000000000000, #5 ) ;
#142 = CARTESIAN_POINT ( 'NONE',  ( 0.000000000000000000, 0.000000000000000000, 6.349999999999999645 ) ) ;
#143 = APPROVAL_DATE_TIME ( #187, #36 ) ;
#144 = EDGE_CURVE ( 'NONE', #97, #46, #51, .T. ) ;
#145 = CARTESIAN_POINT ( 'NONE',  ( 5.000000000000000000, 6.123233995736766282E-16, 0.000000000000000000 ) ) ;
#146 = DIRECTION ( 'NONE',  ( -1.000000000000000000, 0.000000000000000000, 0.000000000000000000 ) ) ;
#147 = DIRECTION ( 'NONE',  ( 0.000000000000000000, 0.000000000000000000, 1.000000000000000000 ) ) ;
#148 = DESIGN_CONTEXT ( 'detailed design', #171, 'design' ) ;
#149 = EDGE_CURVE ( 'NONE', #132, #97, #167, .T. ) ;
#150 = PRODUCT_RELATED_PRODUCT_CATEGORY ( 'detail', '', ( #134 ) ) ;
#151 = APPLICATION_CONTEXT ( 'configuration controlled 3d designs of mechanical parts and assemblies' ) ;
#152 = DATE_AND_TIME ( #4, #141 ) ;
#153 = EDGE_LOOP ( 'NONE', ( #202, #233, #28, #85 ) ) ;
#154 = LOCAL_TIME ( 16, 50, 49.00000000000000000, #209 ) ;
#155 = CARTESIAN_POINT ( 'NONE',  ( 2.549999999999999822, 3.122849337825750419E-16, 6.349999999999999645 ) ) ;
#156 = VECTOR ( 'NONE', #29, 1000.000000000000000 ) ;
#157 = COORDINATED_UNIVERSAL_TIME_OFFSET ( 3, 0, .AHEAD. ) ;
#158 = PRODUCT_DEFINITION_SHAPE ( 'NONE', 'NONE',  #179 ) ;
#159 = DIRECTION ( 'NONE',  ( -0.000000000000000000, -0.000000000000000000, -1.000000000000000000 ) ) ;
#160 = EDGE_LOOP ( 'NONE', ( #3, #20, #230, #10 ) ) ;
#161 = ORIENTED_EDGE ( 'NONE', *, *, #21, .F. ) ;
#162 = PERSON ( 'UNSPECIFIED', 'UNSPECIFIED', 'UNSPECIFIED', ('UNSPECIFIED'), ('UNSPECIFIED'), ('UNSPECIFIED') ) ;
#163 = DIRECTION ( 'NONE',  ( 1.000000000000000000, 0.000000000000000000, 0.000000000000000000 ) ) ;
#164 = CARTESIAN_POINT ( 'NONE',  ( 5.000000000000000000, 6.123233995736766282E-16, 6.349999999999999645 ) ) ;
#165 = CARTESIAN_POINT ( 'NONE',  ( -5.000000000000000000, 0.000000000000000000, 6.349999999999999645 ) ) ;
#166 = APPROVAL_STATUS ( 'not_yet_approved' ) ;
#167 = CIRCLE ( 'NONE', #178, 5.000000000000000000 ) ;
#168 = CARTESIAN_POINT ( 'NONE',  ( 0.000000000000000000, 0.000000000000000000, 0.000000000000000000 ) ) ;
#169 = FACE_OUTER_BOUND ( 'NONE', #203, .T. ) ;
#170 = CC_DESIGN_APPROVAL ( #36, ( #27 ) ) ;
#171 = APPLICATION_CONTEXT ( 'configuration controlled 3d designs of mechanical parts and assemblies' ) ;
#172 = ADVANCED_FACE ( 'NONE', ( #17, #191 ), #48, .F. ) ;
#173 = APPLICATION_PROTOCOL_DEFINITION ( 'international standard', 'config_control_design', 1994, #171 ) ;
#174 = LOCAL_TIME ( 16, 50, 49.00000000000000000, #121 ) ;
#175 = CARTESIAN_POINT ( 'NONE',  ( 0.000000000000000000, 0.000000000000000000, 0.000000000000000000 ) ) ;
#176 = EDGE_CURVE ( 'NONE', #97, #132, #7, .T. ) ;
#177 = DIRECTION ( 'NONE',  ( -0.000000000000000000, -0.000000000000000000, -1.000000000000000000 ) ) ;
#178 = AXIS2_PLACEMENT_3D ( 'NONE', #210, #32, #140 ) ;
#179 = PRODUCT_DEFINITION ( 'UNKNOWN', '', #27, #148 ) ;
#180 = VERTEX_POINT ( 'NONE', #37 ) ;
#181 = PERSON_AND_ORGANIZATION_ROLE ( 'creator' ) ;
#182 = EDGE_LOOP ( 'NONE', ( #103, #39, #23, #193 ) ) ;
#183 = ORIENTED_EDGE ( 'NONE', *, *, #128, .F. ) ;
#184 = CARTESIAN_POINT ( 'NONE',  ( 0.000000000000000000, 0.000000000000000000, 6.349999999999999645 ) ) ;
#185 = APPROVAL_ROLE ( '' ) ;
#186 = FACE_OUTER_BOUND ( 'NONE', #160, .T. ) ;
#187 = DATE_AND_TIME ( #226, #154 ) ;
#188 = DIRECTION ( 'NONE',  ( 0.000000000000000000, 0.000000000000000000, 1.000000000000000000 ) ) ;
#189 = MANIFOLD_SOLID_BREP ( 'Áîáûøêà-Âûòÿíóòü1', #213 ) ;
#190 = CIRCLE ( 'NONE', #220, 2.549999999999999822 ) ;
#191 = FACE_BOUND ( 'NONE', #239, .T. ) ;
#192 = CIRCLE ( 'NONE', #100, 5.000000000000000000 ) ;
#193 = ORIENTED_EDGE ( 'NONE', *, *, #227, .F. ) ;
#194 = CC_DESIGN_PERSON_AND_ORGANIZATION_ASSIGNMENT ( #49, #14, ( #27 ) ) ;
#195 = AXIS2_PLACEMENT_3D ( 'NONE', #98, #2, #214 ) ;
#196 = LINE ( 'NONE', #60, #108 ) ;
#197 =( NAMED_UNIT ( * ) SI_UNIT ( $, .STERADIAN. ) SOLID_ANGLE_UNIT ( ) );
#198 = EDGE_CURVE ( 'NONE', #238, #180, #207, .T. ) ;
#199 = CC_DESIGN_DATE_AND_TIME_ASSIGNMENT ( #11, #125, ( #122 ) ) ;
#200 = DIRECTION ( 'NONE',  ( 1.000000000000000000, 0.000000000000000000, -0.000000000000000000 ) ) ;
#201 = COORDINATED_UNIVERSAL_TIME_OFFSET ( 3, 0, .AHEAD. ) ;
#202 = ORIENTED_EDGE ( 'NONE', *, *, #218, .F. ) ;
#203 = EDGE_LOOP ( 'NONE', ( #139, #12, #67, #161 ) ) ;
#204 = APPROVAL_PERSON_ORGANIZATION ( #70, #55, #185 ) ;
#205 = CALENDAR_DATE ( 2024, 12, 12 ) ;
#206 = CYLINDRICAL_SURFACE ( 'NONE', #224, 2.549999999999999822 ) ;
#207 = CIRCLE ( 'NONE', #195, 2.549999999999999822 ) ;
#208 = FACE_OUTER_BOUND ( 'NONE', #182, .T. ) ;
#209 = COORDINATED_UNIVERSAL_TIME_OFFSET ( 3, 0, .AHEAD. ) ;
#210 = CARTESIAN_POINT ( 'NONE',  ( 0.000000000000000000, 0.000000000000000000, 6.349999999999999645 ) ) ;
#211 = CARTESIAN_POINT ( 'NONE',  ( -5.000000000000000000, 0.000000000000000000, 0.000000000000000000 ) ) ;
#212 = CC_DESIGN_SECURITY_CLASSIFICATION ( #122, ( #27 ) ) ;
#213 = CLOSED_SHELL ( 'NONE', ( #62, #130, #16, #172, #89, #22 ) ) ;
#214 = DIRECTION ( 'NONE',  ( 1.000000000000000000, 0.000000000000000000, 0.000000000000000000 ) ) ;
#215 = CARTESIAN_POINT ( 'NONE',  ( 0.000000000000000000, 0.000000000000000000, 6.349999999999999645 ) ) ;
#216 = VECTOR ( 'NONE', #159, 1000.000000000000000 ) ;
#217 = DIRECTION ( 'NONE',  ( 1.000000000000000000, 0.000000000000000000, 0.000000000000000000 ) ) ;
#218 = EDGE_CURVE ( 'NONE', #238, #65, #234, .T. ) ;
#219 = EDGE_LOOP ( 'NONE', ( #183, #222 ) ) ;
#220 = AXIS2_PLACEMENT_3D ( 'NONE', #88, #72, #163 ) ;
#221 = VERTEX_POINT ( 'NONE', #137 ) ;
#222 = ORIENTED_EDGE ( 'NONE', *, *, #198, .F. ) ;
#223 = CARTESIAN_POINT ( 'NONE',  ( 0.000000000000000000, 0.000000000000000000, 6.349999999999999645 ) ) ;
#224 = AXIS2_PLACEMENT_3D ( 'NONE', #111, #74, #90 ) ;
#225 = CYLINDRICAL_SURFACE ( 'NONE', #43, 5.000000000000000000 ) ;
#226 = CALENDAR_DATE ( 2024, 12, 12 ) ;
#227 = EDGE_CURVE ( 'NONE', #132, #57, #196, .T. ) ;
#228 = DIRECTION ( 'NONE',  ( -0.000000000000000000, -0.000000000000000000, -1.000000000000000000 ) ) ;
#229 = CC_DESIGN_PERSON_AND_ORGANIZATION_ASSIGNMENT ( #25, #38, ( #134 ) ) ;
#230 = ORIENTED_EDGE ( 'NONE', *, *, #227, .T. ) ;
#231 = AXIS2_PLACEMENT_3D ( 'NONE', #77, #52, #19 ) ;
#232 =( NAMED_UNIT ( * ) PLANE_ANGLE_UNIT ( ) SI_UNIT ( $, .RADIAN. ) );
#233 = ORIENTED_EDGE ( 'NONE', *, *, #198, .T. ) ;
#234 = LINE ( 'NONE', #155, #216 ) ;
#235 = APPROVAL_PERSON_ORGANIZATION ( #66, #36, #244 ) ;
#236 = APPROVAL_ROLE ( '' ) ;
#237 = CC_DESIGN_DATE_AND_TIME_ASSIGNMENT ( #136, #117, ( #179 ) ) ;
#238 = VERTEX_POINT ( 'NONE', #8 ) ;
#239 = EDGE_LOOP ( 'NONE', ( #63, #86 ) ) ;
#240 = ORIENTED_EDGE ( 'NONE', *, *, #64, .F. ) ;
#241 = CARTESIAN_POINT ( 'NONE',  ( 5.000000000000000000, 6.123233995736766282E-16, 6.349999999999999645 ) ) ;
#242 = PERSON_AND_ORGANIZATION ( #162, #94 ) ;
#243 = DIRECTION ( 'NONE',  ( -0.000000000000000000, -0.000000000000000000, -1.000000000000000000 ) ) ;
#244 = APPROVAL_ROLE ( '' ) ;
#245 = LINE ( 'NONE', #31, #156 ) ;
#246 = DATE_AND_TIME ( #205, #71 ) ;
#247 = AXIS2_PLACEMENT_3D ( 'NONE', #184, #243, #33 ) ;
#248 = CC_DESIGN_PERSON_AND_ORGANIZATION_ASSIGNMENT ( #242, #181, ( #27 ) ) ;
#249 = DIRECTION ( 'NONE',  ( -0.000000000000000000, -0.000000000000000000, -1.000000000000000000 ) ) ;
ENDSEC;
END-ISO-10303-21;
